Login    
   Praise Whistlers Abroad
   Home Page: praisewhistlers.org
    Register FAQ  •  Search    
It is currently Fri Nov 24, 2017 11:37 pm

All times are UTC - 6 hours


Jump to:  
Post new topic Reply to topic  [ 7 posts ] 
Author Message
 Post subject: West Virginia Hills
PostPosted: Mon Oct 29, 2007 7:17 am 
Offline
Moderator
User avatar

Joined: Fri Jan 13, 2006 4:38 pm
Posts: 358
Location: 1.7 Miles East of Oklahoma
Hi-Fi:

http://ezfolk.com/audio/play.php?mode=s ... g_id=11191


Lo-fi:

http://ezfolk.com/audio/play.php?mode=s ... g_id=11191


And here's some dulcimer TAB. You will want to copy/paste it into a plain-text editor (e.g. Notepad) to get the notes to line up correctly.

Tune: West Virginia Hills
Time: 12/8
Key: G major
Tuning: DAd capo 3


------0-----------------------6-----------0-----------
------0-----------------------4---------4-0-----------
0---4-5---5-5---5-7-----5---4-0---4-0-----------0---4-

0-----------------------4-----------------------
0-----------------------0-----------------------
5---5-5---5-5---7-7---5-4---4-0---5-4-----7---6-

0-----------------------6-----------0-----------
0-----------------------4---------4-0-----------
5---5-5---5-7-----5---4-0---4-0-----------0---4-

0-----------------------4-----------0-----------
0-----------------------0-----------0-----------
5---5-5---5-5---7-7---5-4---6-5---4-0-----0-4-5-

------6-6-6-6-----------------0-0-0-0-----------
------6-6-6-6-----------------0-0-0-0-----------
6-----------------8-8-8-7-----------------5---4-

0-----------------------------4-4-4-4-----------
0-----------------------------0-0-0-0-----------
0---0-0---5-7-----5-----4-----------------7---6-

0-----------------------6-----------0-----------
0-----------------------4---------4-0-----------
5---5-5---5-7-----5---4-0---4-0-----------0---4-

0-----------4-----------0-----------------------
0-----------0-----------0-----------------------
5---7-7---5-4---6-5---4-0-----------------------

_________________
The Ultimate 3G Network:

GOD the Father
GOD the Son
GOD the Holy Spirit


 Profile  
 Post subject: Re: West Virginia Hills
PostPosted: Mon Oct 29, 2007 11:10 am 
Offline
Site Admin
User avatar

Joined: Tue Jan 10, 2006 7:49 am
Posts: 207
Location: Oklahoma
Ren-Tin-10 wrote:

And here's some dulcimer TAB. You will want to copy/paste it into a plain-text editor (e.g. Notepad) to get the notes to line up correctly.

Like this:
Code:

Tune: West Virginia Hills
Time: 12/8
Key: G major
Tuning: DAd capo 3


------0-----------------------6-----------0-----------
------0-----------------------4---------4-0-----------
0---4-5---5-5---5-7-----5---4-0---4-0-----------0---4-

0-----------------------4-----------------------
0-----------------------0-----------------------
5---5-5---5-5---7-7---5-4---4-0---5-4-----7---6-

0-----------------------6-----------0-----------
0-----------------------4---------4-0-----------
5---5-5---5-7-----5---4-0---4-0-----------0---4-

0-----------------------4-----------0-----------
0-----------------------0-----------0-----------
5---5-5---5-5---7-7---5-4---6-5---4-0-----0-4-5-

------6-6-6-6-----------------0-0-0-0-----------
------6-6-6-6-----------------0-0-0-0-----------
6-----------------8-8-8-7-----------------5---4-

0-----------------------------4-4-4-4-----------
0-----------------------------0-0-0-0-----------
0---0-0---5-7-----5-----4-----------------7---6-

0-----------------------6-----------0-----------
0-----------------------4---------4-0-----------
5---5-5---5-7-----5---4-0---4-0-----------0---4-

0-----------4-----------0-----------------------
0-----------0-----------0-----------------------
5---7-7---5-4---6-5---4-0-----------------------


 Profile  
 Post subject:
PostPosted: Mon Oct 29, 2007 12:19 pm 
Offline
Moderator
User avatar

Joined: Fri Jan 13, 2006 4:38 pm
Posts: 358
Location: 1.7 Miles East of Oklahoma
Thanks, Walden.

I'm the computer geek here, so I should've known. :oops:

Next time, I'll remember.

_________________
The Ultimate 3G Network:

GOD the Father
GOD the Son
GOD the Holy Spirit


 Profile  
 Post subject:
PostPosted: Mon Oct 29, 2007 4:18 pm 
Offline
Site Admin
User avatar

Joined: Tue Nov 28, 2006 7:25 am
Posts: 830
Location: Richmond, VA
Very cool Ren - sounds like you'd be right at home in those WV hills. I have some experience with them myself :) ! You be a hit with the dulcimer, mate!

Nicely done - how did you process the clip? Sounds like a quick stereo delay, yes? Works well on the song.

jrc

_________________
Behold, as for the proud one, His soul is not right within him; But the righteous will live by his faith.
Habbakuk 2:4


 Profile  
 Post subject:
PostPosted: Mon Oct 29, 2007 4:36 pm 
Offline
Site Admin
User avatar

Joined: Thu Jan 12, 2006 11:20 pm
Posts: 853
Location: Southern Ohio
What a pretty piece, Ren!

Thanks for the TAB -- I may give it a shot.


 Profile  
 Post subject:
PostPosted: Mon Oct 29, 2007 5:07 pm 
Offline
Moderator
User avatar

Joined: Thu Jan 12, 2006 6:22 am
Posts: 1192
Location: Rodhope Mountains, Greece
Very nice indeed! =D>=D> =D> =D> =D> =D> =D>


 Profile  
 Post subject:
PostPosted: Mon Oct 29, 2007 9:36 pm 
Offline
Moderator
User avatar

Joined: Fri Jan 13, 2006 4:38 pm
Posts: 358
Location: 1.7 Miles East of Oklahoma
jrc wrote:
VSounds like a quick stereo delay, yes?


Bingo! :mrgreen:

And thanks to all of you for your kind words. :D

_________________
The Ultimate 3G Network:

GOD the Father
GOD the Son
GOD the Holy Spirit


 Profile  
Display posts from previous:  Sort by  
Post new topic Reply to topic  [ 7 posts ] 

All times are UTC - 6 hours


Who is online

Users browsing this forum: No registered users and 2 guests


You cannot post new topics in this forum
You cannot reply to topics in this forum
You cannot edit your posts in this forum
You cannot delete your posts in this forum
You cannot post attachments in this forum

Search for:
cron
phpBB skin developed by: John Olson
Powered by phpBB © 2000, 2002, 2005, 2007 phpBB Group